ISO-10303-21;
HEADER;
FILE_DESCRIPTION(('CATIA V5 STEP Exchange'),'2;1');

FILE_NAME('C:\\Users\\Astroboy\\Desktop\\RIDIX\\work\\RDRR100.19.stp','2017-03-06T18:49:40+00:00',('none'),('none'),'CATIA Version 5 Release 19 GA (IN-10)','CATIA V5 STEP AP203','none');

FILE_SCHEMA(('CONFIG_CONTROL_DESIGN'));

ENDSEC;
/* file written by CATIA V5R19 */
DATA;
#5=PRODUCT('RDRR100.19','','RONDELLA\X2\000D\X0\\X2\000A\X0\SCORRIMENTI EUROPE\X2\000D\X0\\X2\000A\X0\',(#2)) ;
#1=APPLICATION_CONTEXT('configuration controlled 3D design of mechanical parts and assemblies') ;
#14=PRODUCT_DEFINITION('',' ',#6,#3) ;
#16=SECURITY_CLASSIFICATION(' ',' ',#15) ;
#15=SECURITY_CLASSIFICATION_LEVEL('unclassified') ;
#47=CARTESIAN_POINT(' ',(0.,0.,0.)) ;
#51=CARTESIAN_POINT('Line Origine',(0.,0.,0.)) ;
#55=CARTESIAN_POINT('Limit',(0.,0.,0.)) ;
#56=CARTESIAN_POINT('Limit',(20.,0.,0.)) ;
#63=CARTESIAN_POINT('Line Origine',(0.,0.,0.)) ;
#67=CARTESIAN_POINT('Limit',(0.,0.,0.)) ;
#68=CARTESIAN_POINT('Limit',(0.,20.,0.)) ;
#72=CARTESIAN_POINT('Line Origine',(0.,0.,0.)) ;
#76=CARTESIAN_POINT('Limit',(0.,0.,0.)) ;
#77=CARTESIAN_POINT('Limit',(0.,0.,20.)) ;
#81=CARTESIAN_POINT('Punto.4',(0.,0.,0.)) ;
#83=CARTESIAN_POINT('Axis2P3D Location',(0.,-4.4408920985E-015,-1.)) ;
#88=CARTESIAN_POINT('Axis2P3D Location',(0.,-4.4408920985E-015,-6.)) ;
#92=CARTESIAN_POINT('Vertex',(8.33703433796,4.55454261674,-6.)) ;
#94=CARTESIAN_POINT('Vertex',(-8.33703433796,-4.55454261674,-6.)) ;
#97=CARTESIAN_POINT('Line Origine',(-6.20513239129,-3.38987927517,-3.57071067812)) ;
#101=CARTESIAN_POINT('Vertex',(-3.94912152851,-2.15741492372,-1.)) ;
#104=CARTESIAN_POINT('Axis2P3D Location',(0.,-4.4408920985E-015,-1.)) ;
#108=CARTESIAN_POINT('Vertex',(3.94912152851,2.15741492372,-1.)) ;
#111=CARTESIAN_POINT('Line Origine',(6.20513239129,3.38987927517,-3.57071067812)) ;
#123=CARTESIAN_POINT('Axis2P3D Location',(0.,-4.4408920985E-015,-6.)) ;
#128=CARTESIAN_POINT('Axis2P3D Location',(0.,-4.4408920985E-015,-1.)) ;
#140=CARTESIAN_POINT('Axis2P3D Location',(0.,-4.4408920985E-015,-5.9)) ;
#145=CARTESIAN_POINT('Axis2P3D Location',(0.,-4.4408920985E-015,0.)) ;
#149=CARTESIAN_POINT('Vertex',(3.94912152851,2.15741492372,-1.7763568394E-015)) ;
#151=CARTESIAN_POINT('Vertex',(-3.94912152851,-2.15741492372,-1.7763568394E-015)) ;
#154=CARTESIAN_POINT('Line Origine',(3.94912152851,2.15741492372,16.5)) ;
#159=CARTESIAN_POINT('Line Origine',(-3.94912152851,-2.15741492372,16.5)) ;
#171=CARTESIAN_POINT('Axis2P3D Location',(-12.5,0.,-6.)) ;
#176=CARTESIAN_POINT('Axis2P3D Location',(0.,5.55111512313E-016,-6.)) ;
#180=CARTESIAN_POINT('Vertex',(-10.5309907427,5.75310646325,-6.)) ;
#182=CARTESIAN_POINT('Vertex',(10.5309908161,-5.75310632893,-6.)) ;
#185=CARTESIAN_POINT('Axis2P3D Location',(1.7763568394E-015,2.28778898262E-015,-6.)) ;
#199=CARTESIAN_POINT('Axis2P3D Location',(0.,-4.4408920985E-015,0.)) ;
#211=CARTESIAN_POINT('Axis2P3D Location',(0.,4.4408920985E-014,-18.)) ;
#216=CARTESIAN_POINT('Line Origine',(-10.7503863832,5.8729628479,-5.75)) ;
#220=CARTESIAN_POINT('Vertex',(-10.9697820236,5.99281923255,-5.5)) ;
#223=CARTESIAN_POINT('Axis2P3D Location',(0.,8.83524213848E-029,-5.5)) ;
#227=CARTESIAN_POINT('Vertex',(10.9697820236,-5.99281923255,-5.5)) ;
#230=CARTESIAN_POINT('Line Origine',(10.7503863832,-5.8729628479,-5.75)) ;
#242=CARTESIAN_POINT('Axis2P3D Location',(-8.881784197E-016,8.881784197E-014,-18.)) ;
#247=CARTESIAN_POINT('Axis2P3D Location',(-8.881784197E-016,-1.26217744835E-029,-5.5)) ;
#259=CARTESIAN_POINT('Axis2P3D Location',(0.,0.,-3.)) ;
#264=CARTESIAN_POINT('Line Origine',(-10.9697820236,5.99281923255,-3.)) ;
#268=CARTESIAN_POINT('Vertex',(-10.9697820236,5.99281923255,-0.5)) ;
#271=CARTESIAN_POINT('Axis2P3D Location',(0.,0.,-0.5)) ;
#275=CARTESIAN_POINT('Vertex',(10.9697820236,-5.99281923255,-0.5)) ;
#278=CARTESIAN_POINT('Line Origine',(10.9697820236,-5.99281923255,-3.)) ;
#290=CARTESIAN_POINT('Axis2P3D Location',(0.,0.,-0.5)) ;
#302=CARTESIAN_POINT('Axis2P3D Location',(-5.41788836017E-014,-4.79616346638E-014,12.)) ;
#307=CARTESIAN_POINT('Line Origine',(-10.7503863832,5.8729628479,-0.25)) ;
#311=CARTESIAN_POINT('Vertex',(-10.5309907427,5.75310646325,0.)) ;
#314=CARTESIAN_POINT('Axis2P3D Location',(-8.881784197E-016,-5.3290705182E-015,2.6645352591E-014)) ;
#318=CARTESIAN_POINT('Vertex',(10.5309908161,-5.75310632894,0.)) ;
#321=CARTESIAN_POINT('Line Origine',(10.7503864581,-5.87296271079,-0.25)) ;
#333=CARTESIAN_POINT('Axis2P3D Location',(-8.881784197E-016,1.06581410364E-013,12.)) ;
#338=CARTESIAN_POINT('Axis2P3D Location',(-8.881784197E-016,1.26217744835E-029,1.7763568394E-015)) ;
#350=CARTESIAN_POINT('Axis2P3D Location',(0.,0.,0.)) ;
#367=CARTESIAN_POINT('Axis2P3D Location',(0.,0.,0.)) ;
#371=CARTESIAN_POINT('Limit',(9.5,0.,0.)) ;
#372=CARTESIAN_POINT('Limit',(-9.5,5.38222352971E-015,0.)) ;
#375=CARTESIAN_POINT('Axis2P3D Location',(0.,0.,0.)) ;
#379=CARTESIAN_POINT('Limit',(-9.5,5.38222352971E-015,0.)) ;
#380=CARTESIAN_POINT('Limit',(9.5,0.,0.)) ;
#52=DIRECTION('Vector Direction',(1.,0.,0.)) ;
#64=DIRECTION('Vector Direction',(0.,1.,0.)) ;
#73=DIRECTION('Vector Direction',(0.,0.,1.)) ;
#84=DIRECTION('Axis2P3D Direction',(-0.,-0.,-1.)) ;
#85=DIRECTION('Axis2P3D XDirection',(0.87758256189,0.479425538604,0.)) ;
#89=DIRECTION('Axis2P3D Direction',(0.,0.,-1.)) ;
#98=DIRECTION('Vector Direction',(-0.620544580564,-0.339005049421,-0.707106781187)) ;
#105=DIRECTION('Axis2P3D Direction',(0.,0.,-1.)) ;
#112=DIRECTION('Vector Direction',(0.620544580564,0.339005049421,-0.707106781187)) ;
#124=DIRECTION('Axis2P3D Direction',(0.,0.,-1.)) ;
#129=DIRECTION('Axis2P3D Direction',(0.,0.,-1.)) ;
#141=DIRECTION('Axis2P3D Direction',(0.,0.,1.)) ;
#142=DIRECTION('Axis2P3D XDirection',(0.87758256189,0.479425538604,0.)) ;
#146=DIRECTION('Axis2P3D Direction',(0.,0.,1.)) ;
#155=DIRECTION('Vector Direction',(0.,0.,1.)) ;
#160=DIRECTION('Vector Direction',(0.,0.,1.)) ;
#172=DIRECTION('Axis2P3D Direction',(0.,0.,-1.)) ;
#173=DIRECTION('Axis2P3D XDirection',(1.,0.,0.)) ;
#177=DIRECTION('Axis2P3D Direction',(0.,0.,-1.)) ;
#186=DIRECTION('Axis2P3D Direction',(0.,0.,-1.)) ;
#200=DIRECTION('Axis2P3D Direction',(0.,0.,1.)) ;
#212=DIRECTION('Axis2P3D Direction',(-0.,-3.5527136788E-015,1.)) ;
#213=DIRECTION('Axis2P3D XDirection',(-0.87758256189,0.479425538604,1.71221572076E-015)) ;
#217=DIRECTION('Vector Direction',(-0.620544580564,0.339005049421,0.707106781187)) ;
#224=DIRECTION('Axis2P3D Direction',(1.49475273902E-015,2.73612653577E-015,-1.)) ;
#231=DIRECTION('Vector Direction',(0.620544580564,-0.339005049421,0.707106781187)) ;
#243=DIRECTION('Axis2P3D Direction',(-0.,-7.1054273576E-015,1.)) ;
#244=DIRECTION('Axis2P3D XDirection',(0.999373860467,0.0353820154157,2.63417803193E-016)) ;
#248=DIRECTION('Axis2P3D Direction',(-2.51246926105E-016,7.09653216536E-015,-1.)) ;
#260=DIRECTION('Axis2P3D Direction',(0.,0.,-1.)) ;
#261=DIRECTION('Axis2P3D XDirection',(-0.87758256189,0.479425538604,-0.)) ;
#265=DIRECTION('Vector Direction',(0.,0.,-1.)) ;
#272=DIRECTION('Axis2P3D Direction',(0.,0.,-1.)) ;
#279=DIRECTION('Vector Direction',(0.,0.,-1.)) ;
#291=DIRECTION('Axis2P3D Direction',(0.,0.,-1.)) ;
#303=DIRECTION('Axis2P3D Direction',(4.4408920985E-015,3.5527136788E-015,-1.)) ;
#304=DIRECTION('Axis2P3D XDirection',(-0.87758256189,0.479425538604,-2.23905132714E-015)) ;
#308=DIRECTION('Vector Direction',(-0.620544580564,0.339005049421,-0.707106781187)) ;
#315=DIRECTION('Axis2P3D Direction',(2.5154866678E-015,4.60456745955E-015,-1.)) ;
#322=DIRECTION('Vector Direction',(0.620544584888,-0.339005041506,-0.707106781187)) ;
#334=DIRECTION('Axis2P3D Direction',(-0.,-8.881784197E-015,-1.)) ;
#335=DIRECTION('Axis2P3D XDirection',(0.999373860467,0.0353820154157,-2.63417803193E-016)) ;
#339=DIRECTION('Axis2P3D Direction',(3.14058657632E-016,-8.8706652067E-015,-1.)) ;
#351=DIRECTION('Axis2P3D Direction',(0.,0.,-1.)) ;
#352=DIRECTION('Axis2P3D XDirection',(1.,0.,0.)) ;
#368=DIRECTION('Axis2P3D Direction',(0.,0.,1.)) ;
#376=DIRECTION('Axis2P3D Direction',(0.,0.,1.)) ;
#48=AXIS2_PLACEMENT_3D(' ',#47,$,$) ;
#86=AXIS2_PLACEMENT_3D('Cone Axis2P3D',#83,#84,#85) ;
#90=AXIS2_PLACEMENT_3D('Circle Axis2P3D',#88,#89,$) ;
#106=AXIS2_PLACEMENT_3D('Circle Axis2P3D',#104,#105,$) ;
#125=AXIS2_PLACEMENT_3D('Circle Axis2P3D',#123,#124,$) ;
#130=AXIS2_PLACEMENT_3D('Circle Axis2P3D',#128,#129,$) ;
#143=AXIS2_PLACEMENT_3D('Cylinder Axis2P3D',#140,#141,#142) ;
#147=AXIS2_PLACEMENT_3D('Circle Axis2P3D',#145,#146,$) ;
#174=AXIS2_PLACEMENT_3D('Plane Axis2P3D',#171,#172,#173) ;
#178=AXIS2_PLACEMENT_3D('Circle Axis2P3D',#176,#177,$) ;
#187=AXIS2_PLACEMENT_3D('Circle Axis2P3D',#185,#186,$) ;
#201=AXIS2_PLACEMENT_3D('Circle Axis2P3D',#199,#200,$) ;
#214=AXIS2_PLACEMENT_3D('Cone Axis2P3D',#211,#212,#213) ;
#225=AXIS2_PLACEMENT_3D('Circle Axis2P3D',#223,#224,$) ;
#245=AXIS2_PLACEMENT_3D('Cone Axis2P3D',#242,#243,#244) ;
#249=AXIS2_PLACEMENT_3D('Circle Axis2P3D',#247,#248,$) ;
#262=AXIS2_PLACEMENT_3D('Cylinder Axis2P3D',#259,#260,#261) ;
#273=AXIS2_PLACEMENT_3D('Circle Axis2P3D',#271,#272,$) ;
#292=AXIS2_PLACEMENT_3D('Circle Axis2P3D',#290,#291,$) ;
#305=AXIS2_PLACEMENT_3D('Cone Axis2P3D',#302,#303,#304) ;
#316=AXIS2_PLACEMENT_3D('Circle Axis2P3D',#314,#315,$) ;
#336=AXIS2_PLACEMENT_3D('Cone Axis2P3D',#333,#334,#335) ;
#340=AXIS2_PLACEMENT_3D('Circle Axis2P3D',#338,#339,$) ;
#353=AXIS2_PLACEMENT_3D('Plane Axis2P3D',#350,#351,#352) ;
#369=AXIS2_PLACEMENT_3D('Circle Axis2P3D',#367,#368,$) ;
#377=AXIS2_PLACEMENT_3D('Circle Axis2P3D',#375,#376,$) ;
#40=PRODUCT_DEFINITION_SHAPE(' ',' ',#14) ;
#59=COMPOSITE_CURVE('Linea.1',(#58),.U.) ;
#71=COMPOSITE_CURVE('Linea.2',(#70),.U.) ;
#80=COMPOSITE_CURVE('Linea.3',(#79),.U.) ;
#383=COMPOSITE_CURVE('Risultato.1 (Cerchio.1)',(#374,#382),.U.) ;
#58=COMPOSITE_CURVE_SEGMENT(.DISCONTINUOUS.,.T.,#57) ;
#70=COMPOSITE_CURVE_SEGMENT(.DISCONTINUOUS.,.T.,#69) ;
#79=COMPOSITE_CURVE_SEGMENT(.DISCONTINUOUS.,.T.,#78) ;
#374=COMPOSITE_CURVE_SEGMENT(.CONTINUOUS.,.T.,#373) ;
#382=COMPOSITE_CURVE_SEGMENT(.DISCONTINUOUS.,.T.,#381) ;
#31=APPROVAL_PERSON_ORGANIZATION(#25,#21,#19) ;
#25=PERSON_AND_ORGANIZATION(#22,#23) ;
#22=PERSON(' ',' ',' ',$,$,$) ;
#23=ORGANIZATION(' ',' ',' ') ;
#21=APPROVAL(#20,' ') ;
#20=APPROVAL_STATUS('not_yet_approved') ;
#19=APPROVAL_ROLE('APPROVER') ;
#13=DATE_AND_TIME(#11,#12) ;
#12=LOCAL_TIME(19,49,39.,#10) ;
#10=COORDINATED_UNIVERSAL_TIME_OFFSET(0,0,.AHEAD.) ;
#117=ORIENTED_EDGE('',*,*,#96,.T.) ;
#118=ORIENTED_EDGE('',*,*,#103,.F.) ;
#119=ORIENTED_EDGE('',*,*,#110,.T.) ;
#120=ORIENTED_EDGE('',*,*,#115,.T.) ;
#134=ORIENTED_EDGE('',*,*,#127,.T.) ;
#135=ORIENTED_EDGE('',*,*,#115,.F.) ;
#136=ORIENTED_EDGE('',*,*,#132,.T.) ;
#137=ORIENTED_EDGE('',*,*,#103,.T.) ;
#165=ORIENTED_EDGE('',*,*,#153,.F.) ;
#166=ORIENTED_EDGE('',*,*,#158,.T.) ;
#167=ORIENTED_EDGE('',*,*,#110,.F.) ;
#168=ORIENTED_EDGE('',*,*,#163,.F.) ;
#191=ORIENTED_EDGE('',*,*,#184,.T.) ;
#192=ORIENTED_EDGE('',*,*,#189,.T.) ;
#195=ORIENTED_EDGE('',*,*,#127,.F.) ;
#196=ORIENTED_EDGE('',*,*,#96,.F.) ;
#205=ORIENTED_EDGE('',*,*,#203,.F.) ;
#206=ORIENTED_EDGE('',*,*,#163,.T.) ;
#207=ORIENTED_EDGE('',*,*,#132,.F.) ;
#208=ORIENTED_EDGE('',*,*,#158,.F.) ;
#236=ORIENTED_EDGE('',*,*,#222,.T.) ;
#237=ORIENTED_EDGE('',*,*,#229,.T.) ;
#238=ORIENTED_EDGE('',*,*,#234,.F.) ;
#239=ORIENTED_EDGE('',*,*,#184,.F.) ;
#253=ORIENTED_EDGE('',*,*,#234,.T.) ;
#254=ORIENTED_EDGE('',*,*,#251,.T.) ;
#255=ORIENTED_EDGE('',*,*,#222,.F.) ;
#256=ORIENTED_EDGE('',*,*,#189,.F.) ;
#284=ORIENTED_EDGE('',*,*,#270,.T.) ;
#285=ORIENTED_EDGE('',*,*,#277,.T.) ;
#286=ORIENTED_EDGE('',*,*,#282,.F.) ;
#287=ORIENTED_EDGE('',*,*,#229,.F.) ;
#296=ORIENTED_EDGE('',*,*,#282,.T.) ;
#297=ORIENTED_EDGE('',*,*,#294,.T.) ;
#298=ORIENTED_EDGE('',*,*,#270,.F.) ;
#299=ORIENTED_EDGE('',*,*,#251,.F.) ;
#327=ORIENTED_EDGE('',*,*,#313,.T.) ;
#328=ORIENTED_EDGE('',*,*,#320,.T.) ;
#329=ORIENTED_EDGE('',*,*,#325,.F.) ;
#330=ORIENTED_EDGE('',*,*,#277,.F.) ;
#344=ORIENTED_EDGE('',*,*,#325,.T.) ;
#345=ORIENTED_EDGE('',*,*,#342,.T.) ;
#346=ORIENTED_EDGE('',*,*,#313,.F.) ;
#347=ORIENTED_EDGE('',*,*,#294,.F.) ;
#356=ORIENTED_EDGE('',*,*,#342,.F.) ;
#357=ORIENTED_EDGE('',*,*,#320,.F.) ;
#360=ORIENTED_EDGE('',*,*,#153,.T.) ;
#361=ORIENTED_EDGE('',*,*,#203,.T.) ;
#197=FACE_BOUND('',#194,.T.) ;
#362=FACE_BOUND('',#359,.T.) ;
#82=CLOSED_SHELL('Closed Shell',(#122,#139,#170,#198,#210,#241,#258,#289,#301,#332,#349,#363)) ;
#53=VECTOR('Line Direction',#52,1.) ;
#65=VECTOR('Line Direction',#64,1.) ;
#74=VECTOR('Line Direction',#73,1.) ;
#99=VECTOR('Line Direction',#98,1.) ;
#113=VECTOR('Line Direction',#112,1.) ;
#156=VECTOR('Line Direction',#155,1.) ;
#161=VECTOR('Line Direction',#160,1.) ;
#218=VECTOR('Line Direction',#217,1.) ;
#232=VECTOR('Line Direction',#231,1.) ;
#266=VECTOR('Line Direction',#265,1.) ;
#280=VECTOR('Line Direction',#279,1.) ;
#309=VECTOR('Line Direction',#308,1.) ;
#323=VECTOR('Line Direction',#322,1.) ;
#365=ADVANCED_BREP_SHAPE_REPRESENTATION('NONE',(#364),#46) ;
#49=SHAPE_REPRESENTATION(' ',(#48),#46) ;
#122=ADVANCED_FACE('PartBody',(#121),#87,.F.) ;
#139=ADVANCED_FACE('PartBody',(#138),#87,.F.) ;
#170=ADVANCED_FACE('PartBody',(#169),#144,.F.) ;
#198=ADVANCED_FACE('PartBody',(#193,#197),#175,.T.) ;
#210=ADVANCED_FACE('PartBody',(#209),#144,.F.) ;
#241=ADVANCED_FACE('PartBody',(#240),#215,.T.) ;
#258=ADVANCED_FACE('PartBody',(#257),#246,.T.) ;
#289=ADVANCED_FACE('PartBody',(#288),#263,.T.) ;
#301=ADVANCED_FACE('PartBody',(#300),#263,.T.) ;
#332=ADVANCED_FACE('PartBody',(#331),#306,.T.) ;
#349=ADVANCED_FACE('PartBody',(#348),#337,.T.) ;
#363=ADVANCED_FACE('PartBody',(#358,#362),#354,.F.) ;
#4=APPLICATION_PROTOCOL_DEFINITION('international standard','config_control_design',1994,#1) ;
#32=APPROVAL_DATE_TIME(#13,#21) ;
#364=MANIFOLD_SOLID_BREP('PartBody',#82) ;
#11=CALENDAR_DATE(2017,6,3) ;
#30=CC_DESIGN_APPROVAL(#21,(#16,#6,#14)) ;
#18=CC_DESIGN_DATE_AND_TIME_ASSIGNMENT(#13,#17,(#16)) ;
#29=CC_DESIGN_DATE_AND_TIME_ASSIGNMENT(#13,#28,(#14)) ;
#17=DATE_TIME_ROLE('classification_date') ;
#28=DATE_TIME_ROLE('creation_date') ;
#27=CC_DESIGN_PERSON_AND_ORGANIZATION_ASSIGNMENT(#25,#26,(#16)) ;
#33=CC_DESIGN_PERSON_AND_ORGANIZATION_ASSIGNMENT(#25,#34,(#6)) ;
#35=CC_DESIGN_PERSON_AND_ORGANIZATION_ASSIGNMENT(#25,#36,(#6,#14)) ;
#37=CC_DESIGN_PERSON_AND_ORGANIZATION_ASSIGNMENT(#25,#38,(#5)) ;
#26=PERSON_AND_ORGANIZATION_ROLE('classification_officer') ;
#34=PERSON_AND_ORGANIZATION_ROLE('design_supplier') ;
#36=PERSON_AND_ORGANIZATION_ROLE('creator') ;
#38=PERSON_AND_ORGANIZATION_ROLE('design_owner') ;
#39=CC_DESIGN_SECURITY_CLASSIFICATION(#16,(#6)) ;
#91=CIRCLE('generated circle',#90,9.5) ;
#107=CIRCLE('generated circle',#106,4.5) ;
#126=CIRCLE('generated circle',#125,9.5) ;
#131=CIRCLE('generated circle',#130,4.5) ;
#148=CIRCLE('generated circle',#147,4.5) ;
#179=CIRCLE('generated circle',#178,12.) ;
#188=CIRCLE('generated circle',#187,12.) ;
#202=CIRCLE('generated circle',#201,4.5) ;
#226=CIRCLE('generated circle',#225,12.5) ;
#250=CIRCLE('generated circle',#249,12.5) ;
#274=CIRCLE('generated circle',#273,12.5) ;
#293=CIRCLE('generated circle',#292,12.5) ;
#317=CIRCLE('generated circle',#316,12.) ;
#341=CIRCLE('generated circle',#340,12.) ;
#370=CIRCLE('generated circle',#369,9.5) ;
#378=CIRCLE('generated circle',#377,9.5) ;
#87=CONICAL_SURFACE('Cone',#86,4.5,0.785398163397) ;
#215=CONICAL_SURFACE('Cone',#214,0.,0.785398163397) ;
#246=CONICAL_SURFACE('Cone',#245,0.,0.785398163397) ;
#306=CONICAL_SURFACE('Cone',#305,0.,0.785398163397) ;
#337=CONICAL_SURFACE('Cone',#336,0.,0.785398163397) ;
#62=SHAPE_REPRESENTATION_RELATIONSHIP(' ',' ',#49,#60) ;
#366=SHAPE_REPRESENTATION_RELATIONSHIP(' ',' ',#49,#365) ;
#144=CYLINDRICAL_SURFACE('generated cylinder',#143,4.5) ;
#263=CYLINDRICAL_SURFACE('generated cylinder',#262,12.5) ;
#3=DESIGN_CONTEXT(' ',#1,'design') ;
#96=EDGE_CURVE('',#93,#95,#91,.T.) ;
#103=EDGE_CURVE('',#102,#95,#100,.T.) ;
#110=EDGE_CURVE('',#102,#109,#107,.F.) ;
#115=EDGE_CURVE('',#109,#93,#114,.T.) ;
#127=EDGE_CURVE('',#95,#93,#126,.T.) ;
#132=EDGE_CURVE('',#109,#102,#131,.F.) ;
#153=EDGE_CURVE('',#150,#152,#148,.F.) ;
#158=EDGE_CURVE('',#150,#109,#157,.F.) ;
#163=EDGE_CURVE('',#152,#102,#162,.F.) ;
#184=EDGE_CURVE('',#181,#183,#179,.T.) ;
#189=EDGE_CURVE('',#183,#181,#188,.T.) ;
#203=EDGE_CURVE('',#152,#150,#202,.F.) ;
#222=EDGE_CURVE('',#181,#221,#219,.T.) ;
#229=EDGE_CURVE('',#221,#228,#226,.T.) ;
#234=EDGE_CURVE('',#183,#228,#233,.T.) ;
#251=EDGE_CURVE('',#228,#221,#250,.T.) ;
#270=EDGE_CURVE('',#221,#269,#267,.F.) ;
#277=EDGE_CURVE('',#269,#276,#274,.T.) ;
#282=EDGE_CURVE('',#228,#276,#281,.F.) ;
#294=EDGE_CURVE('',#276,#269,#293,.T.) ;
#313=EDGE_CURVE('',#269,#312,#310,.F.) ;
#320=EDGE_CURVE('',#312,#319,#317,.T.) ;
#325=EDGE_CURVE('',#276,#319,#324,.F.) ;
#342=EDGE_CURVE('',#319,#312,#341,.T.) ;
#116=EDGE_LOOP('',(#117,#118,#119,#120)) ;
#133=EDGE_LOOP('',(#134,#135,#136,#137)) ;
#164=EDGE_LOOP('',(#165,#166,#167,#168)) ;
#190=EDGE_LOOP('',(#191,#192)) ;
#194=EDGE_LOOP('',(#195,#196)) ;
#204=EDGE_LOOP('',(#205,#206,#207,#208)) ;
#235=EDGE_LOOP('',(#236,#237,#238,#239)) ;
#252=EDGE_LOOP('',(#253,#254,#255,#256)) ;
#283=EDGE_LOOP('',(#284,#285,#286,#287)) ;
#295=EDGE_LOOP('',(#296,#297,#298,#299)) ;
#326=EDGE_LOOP('',(#327,#328,#329,#330)) ;
#343=EDGE_LOOP('',(#344,#345,#346,#347)) ;
#355=EDGE_LOOP('',(#356,#357)) ;
#359=EDGE_LOOP('',(#360,#361)) ;
#121=FACE_OUTER_BOUND('',#116,.T.) ;
#138=FACE_OUTER_BOUND('',#133,.T.) ;
#169=FACE_OUTER_BOUND('',#164,.T.) ;
#193=FACE_OUTER_BOUND('',#190,.T.) ;
#209=FACE_OUTER_BOUND('',#204,.T.) ;
#240=FACE_OUTER_BOUND('',#235,.T.) ;
#257=FACE_OUTER_BOUND('',#252,.T.) ;
#288=FACE_OUTER_BOUND('',#283,.T.) ;
#300=FACE_OUTER_BOUND('',#295,.T.) ;
#331=FACE_OUTER_BOUND('',#326,.T.) ;
#348=FACE_OUTER_BOUND('',#343,.T.) ;
#358=FACE_OUTER_BOUND('',#355,.T.) ;
#61=GEOMETRIC_SET('NONE',(#59,#71,#80,#81,#383)) ;
#60=GEOMETRICALLY_BOUNDED_SURFACE_SHAPE_REPRESENTATION('NONE',(#61),#46) ;
#45=UNCERTAINTY_MEASURE_WITH_UNIT(LENGTH_MEASURE(0.005),#41,'distance_accuracy_value','CONFUSED CURVE UNCERTAINTY') ;
#54=LINE('Line',#51,#53) ;
#66=LINE('Line',#63,#65) ;
#75=LINE('Line',#72,#74) ;
#100=LINE('Line',#97,#99) ;
#114=LINE('Line',#111,#113) ;
#157=LINE('Line',#154,#156) ;
#162=LINE('Line',#159,#161) ;
#219=LINE('Line',#216,#218) ;
#233=LINE('Line',#230,#232) ;
#267=LINE('Line',#264,#266) ;
#281=LINE('Line',#278,#280) ;
#310=LINE('Line',#307,#309) ;
#324=LINE('Line',#321,#323) ;
#2=MECHANICAL_CONTEXT(' ',#1,'mechanical') ;
#24=PERSONAL_ADDRESS(' ',' ',' ',' ',' ',' ',' ',' ',' ',' ',' ',' ',(#22),' ') ;
#175=PLANE('Plane',#174) ;
#354=PLANE('Plane',#353) ;
#43=PLANE_ANGLE_MEASURE_WITH_UNIT(PLANE_ANGLE_MEASURE(0.0174532925199),#42) ;
#7=PRODUCT_CATEGORY('part',$) ;
#9=PRODUCT_CATEGORY_RELATIONSHIP(' ',' ',#7,#8) ;
#6=PRODUCT_DEFINITION_FORMATION_WITH_SPECIFIED_SOURCE('',' ',#5,.NOT_KNOWN.) ;
#8=PRODUCT_RELATED_PRODUCT_CATEGORY('detail',$,(#5)) ;
#50=SHAPE_DEFINITION_REPRESENTATION(#40,#49) ;
#57=TRIMMED_CURVE('',#54,(#55),(#56),.T.,.CARTESIAN.) ;
#69=TRIMMED_CURVE('',#66,(#67),(#68),.T.,.CARTESIAN.) ;
#78=TRIMMED_CURVE('',#75,(#76),(#77),.T.,.CARTESIAN.) ;
#373=TRIMMED_CURVE('',#370,(#371),(#372),.T.,.CARTESIAN.) ;
#381=TRIMMED_CURVE('',#378,(#379),(#380),.T.,.CARTESIAN.) ;
#93=VERTEX_POINT('',#92) ;
#95=VERTEX_POINT('',#94) ;
#102=VERTEX_POINT('',#101) ;
#109=VERTEX_POINT('',#108) ;
#150=VERTEX_POINT('',#149) ;
#152=VERTEX_POINT('',#151) ;
#181=VERTEX_POINT('',#180) ;
#183=VERTEX_POINT('',#182) ;
#221=VERTEX_POINT('',#220) ;
#228=VERTEX_POINT('',#227) ;
#269=VERTEX_POINT('',#268) ;
#276=VERTEX_POINT('',#275) ;
#312=VERTEX_POINT('',#311) ;
#319=VERTEX_POINT('',#318) ;
#41=(LENGTH_UNIT()NAMED_UNIT(*)SI_UNIT(.MILLI.,.METRE.)) ;
#42=(NAMED_UNIT(*)PLANE_ANGLE_UNIT()SI_UNIT($,.RADIAN.)) ;
#44=(NAMED_UNIT(*)SI_UNIT($,.STERADIAN.)SOLID_ANGLE_UNIT()) ;
#46=(GEOMETRIC_REPRESENTATION_CONTEXT(3)GLOBAL_UNCERTAINTY_ASSIGNED_CONTEXT((#45))GLOBAL_UNIT_ASSIGNED_CONTEXT((#41,#42,#44))REPRESENTATION_CONTEXT(' ',' ')) ;
ENDSEC;
END-ISO-10303-21;
